BACK TO FULL JCS CHORDS AND LYRICS
"John 19:41" from Jesus Christ Superstar

Tablature for acoustic guitar by Robb Anagnostis Jan-05 robb@musician.org

 MIDI by Robb  of "JOHN 19:41" (for classical guitar)>>>



*************************************************************************** Simple text version of the tablature follows
      Dsus2      Dsus2/C        Dm/Bb       Dsus2/A        Gm6        Gm7/F Gm6/F  
E||--------------0-----------|--------1-----0-----------|-------0-----1-----0-----|
B||--------3-----------3-----|--------------------3-----|-------------3-----3-----|
G||*--2-------2-----2-----2--|-----2-----2-----2-----2--|--3-------3-----3-----3--|
D||*--0----------------------|--------------------------|-------------------------|
A||--------------3-----------|--1-----------0-----------|-------------------------|
E||--------------------------|--------------------------|--3----------1-----------|


  Gm6/E       Gm7/E Gm6/E    C           Csus4/C/Bb (n  Fsus4/F/A   Fadd9/F/A    
--------3-----1-----0-----|--------0-----1-----3-----|--6--------5--3-----1-----|
--------5-----3-----3-----|--1-----------1-----1-----|--6-----6-----1-----1-----|
-----3-----3-----3-----3--|--0-----0--------0-----0--|-----5-----------2-----2--|
--------------0-----------|-----2-----2--------------|--------------------------|
--------------------------|--3-----------1-----------|--0-----------------------|
--0-----------------------|--------------------------|--------------------------|


  A           A7/5+          Dsus4 Dm    Dsus2          Bb       Bbadd11+       
--5--------3--------0-----|--3--------1--0-----------|-----------0--0----------|
--2--------2--6-----------|--3-----3-----3-----3-----|--6----------------------|
--------2-----6-----6-----|-----2-----------2-----2--|--7-----7-----------7----|
-----2-----------5-----5--|--0-----------0-----------|-----8-----------8-------|
--0-----------0-----------|--------------------------|-------------------------|
--------------------------|--------------------------|--6-----------6----------|


  Dm/A                     E                       A          A7   A       
--1---------------------|--0--------------------|--0---------------------||
--3---------------------|--0--------------------|--2---------------2-----||
--2----2-----0----------|--1--------------------|--2----------0----2----*||
--0---------------3-----|--2----2--3--2----3----|--2----2--3--2----2----*||
--0-------0----------0--|--2--------------------|--0----------0----------||
------------------------|--0--------------------|------------------------||


  A         Aadd13-        Bb                                           
--0---------1--0--------|--6--------------6----|--5--------------------|
--2---------2-----3--2--|--6-------------------|---------------6-------|
--2------2--2-----------|--7----7----6---------|-------7----9-----9----|
--2---------2-----------|--8-------------------|-----------------------|
--0---------0-----------|--8-------------------|-----------------------|
------------------------|--6-------------------|-----------------------|


                                                                     
---------------------|--6--------------6----|--5--------------------|
--8------------------|--6-------------------|---------------6-------|
---------------------|--7----7----6---------|-------7----9-----9----|
-------10------------|--8-------------------|-----------------------|
---------------------|--8-------------------|-----------------------|
---------------------|--6-------------------|-----------------------|


                        Bb                                    
---------------------|--6----------------|------------------||
--8------------------|--6----------------|------------------||
---------------------|--7----------------|------------------||
-------10------------|--8----------------|------------------||
---------------------|--8----------------|------------------||
---------------------|--6----------------|------------------||